ISO-10303-21;
HEADER;
FILE_DESCRIPTION (( 'STEP AP203' ),
    '1' );
FILE_NAME ('N-SF1-BPBSC-20-900-1300.STEP',
    '2021-01-05T02:14:49',
    ( '' ),
    ( '' ),
    'SwSTEP 2.0',
    'SolidWorks 2020',
    '' );
FILE_SCHEMA (( 'CONFIG_CONTROL_DESIGN' ));
ENDSEC;

DATA;
#1 = VERTEX_POINT ( 'NONE', #49 ) ;
#2 =( GEOMETRIC_REPRESENTATION_CONTEXT ( 3 ) GLOBAL_UNCERTAINTY_ASSIGNED_CONTEXT ( ( #151 ) ) GLOBAL_UNIT_ASSIGNED_CONTEXT ( ( #129, #61, #64 ) ) REPRESENTATION_CONTEXT ( 'NONE', 'WORKASPACE' ) );
#3 = ORIENTED_EDGE ( 'NONE', *, *, #239, .F. ) ;
#4 = EDGE_CURVE ( 'NONE', #111, #259, #23, .T. ) ;
#5 = CARTESIAN_POINT ( 'NONE',  ( 10.00000000000000000, 10.00000000000000000, -10.00000000000000000 ) ) ;
#6 = PLANE ( 'NONE',  #185 ) ;
#7 = PLANE ( 'NONE',  #39 ) ;
#8 = PLANE ( 'NONE',  #105 ) ;
#9 = VECTOR ( 'NONE', #271, 1000.000000000000000 ) ;
#10 = FACE_OUTER_BOUND ( 'NONE', #209, .T. ) ;
#11 = DIRECTION ( 'NONE',  ( 0.000000000000000000, -0.000000000000000000, 1.000000000000000000 ) ) ;
#12 = DIRECTION ( 'NONE',  ( -0.000000000000000000, 1.000000000000000000, -0.000000000000000000 ) ) ;
#13 = PERSON_AND_ORGANIZATION_ROLE ( 'creator' ) ;
#14 = CALENDAR_DATE ( 2021, 5, 1 ) ;
#15 = PERSON_AND_ORGANIZATION ( #98, #315 ) ;
#16 = COORDINATED_UNIVERSAL_TIME_OFFSET ( 8, 0, .AHEAD. ) ;
#17 = VECTOR ( 'NONE', #269, 1000.000000000000000 ) ;
#18 = DATE_TIME_ROLE ( 'classification_date' ) ;
#19 = VERTEX_POINT ( 'NONE', #317 ) ;
#20 = CARTESIAN_POINT ( 'NONE',  ( -9.999999999999998224, -10.00000000000000000, 10.00000000000000000 ) ) ;
#21 = ORIENTED_EDGE ( 'NONE', *, *, #148, .T. ) ;
#22 = VERTEX_POINT ( 'NONE', #88 ) ;
#23 = LINE ( 'NONE', #20, #292 ) ;
#24 = ORIENTED_EDGE ( 'NONE', *, *, #293, .F. ) ;
#25 = CARTESIAN_POINT ( 'NONE',  ( 10.00000000000000178, 9.999999999999998224, 10.00000000000000000 ) ) ;
#26 = LINE ( 'NONE', #99, #152 ) ;
#27 = DIRECTION ( 'NONE',  ( 1.000000000000000000, -2.220446049250313081E-16, 0.000000000000000000 ) ) ;
#28 = FACE_OUTER_BOUND ( 'NONE', #134, .T. ) ;
#29 = CARTESIAN_POINT ( 'NONE',  ( 0.000000000000000000, 0.000000000000000000, -10.00000000000000000 ) ) ;
#30 = COORDINATED_UNIVERSAL_TIME_OFFSET ( 8, 0, .AHEAD. ) ;
#31 = EDGE_CURVE ( 'NONE', #230, #19, #186, .T. ) ;
#32 = DIRECTION ( 'NONE',  ( 0.000000000000000000, -0.000000000000000000, 1.000000000000000000 ) ) ;
#33 = APPROVAL_ROLE ( '' ) ;
#34 = CARTESIAN_POINT ( 'NONE',  ( 10.00000000000000000, 10.00000000000000000, 10.00000000000000000 ) ) ;
#35 = DIRECTION ( 'NONE',  ( 1.000000000000000000, -2.220446049250313081E-16, 0.000000000000000000 ) ) ;
#36 = EDGE_CURVE ( 'NONE', #19, #1, #96, .T. ) ;
#37 = PRODUCT_DEFINITION_FORMATION_WITH_SPECIFIED_SOURCE ( 'ANY', '', #260, .NOT_KNOWN. ) ;
#38 = MANIFOLD_SOLID_BREP ( 'Í¹Ì¨-À', #299 ) ;
#39 = AXIS2_PLACEMENT_3D ( 'NONE', #119, #194, #300 ) ;
#40 = VERTEX_POINT ( 'NONE', #5 ) ;
#41 = EDGE_CURVE ( 'NONE', #319, #71, #192, .T. ) ;
#42 = MANIFOLD_SOLID_BREP ( '¾µÏ', #255 ) ;
#43 = ORIENTED_EDGE ( 'NONE', *, *, #4, .F. ) ;
#44 = ORIENTED_EDGE ( 'NONE', *, *, #62, .F. ) ;
#45 = ADVANCED_FACE ( 'NONE', ( #162 ), #241, .F. ) ;
#46 = ORIENTED_EDGE ( 'NONE', *, *, #239, .T. ) ;
#47 = VECTOR ( 'NONE', #170, 1000.000000000000000 ) ;
#48 = LOCAL_TIME ( 10, 14, 49.00000000000000000, #16 ) ;
#49 = CARTESIAN_POINT ( 'NONE',  ( -10.00000000000000178, -9.999999999999996447, 10.00000000000000000 ) ) ;
#50 = ORIENTED_EDGE ( 'NONE', *, *, #41, .T. ) ;
#51 = CARTESIAN_POINT ( 'NONE',  ( 10.00000000000000178, 9.999999999999998224, -10.00000000000000000 ) ) ;
#52 = EDGE_CURVE ( 'NONE', #69, #319, #53, .T. ) ;
#53 = LINE ( 'NONE', #51, #283 ) ;
#54 = CARTESIAN_POINT ( 'NONE',  ( 10.00000000000000178, 9.999999999999998224, 10.00000000000000000 ) ) ;
#55 = CARTESIAN_POINT ( 'NONE',  ( -9.999999999999998224, 10.00000000000000355, 10.00000000000000000 ) ) ;
#56 = FACE_OUTER_BOUND ( 'NONE', #236, .T. ) ;
#57 = FACE_OUTER_BOUND ( 'NONE', #93, .T. ) ;
#58 = CARTESIAN_POINT ( 'NONE',  ( 10.00000000000000178, 9.999999999999998224, 10.00000000000000000 ) ) ;
#59 = APPLICATION_PROTOCOL_DEFINITION ( 'international standard', 'config_control_design', 1994, #183 ) ;
#60 = PLANE ( 'NONE',  #233 ) ;
#61 =( NAMED_UNIT ( * ) PLANE_ANGLE_UNIT ( ) SI_UNIT ( $, .RADIAN. ) );
#62 = EDGE_CURVE ( 'NONE', #22, #40, #141, .T. ) ;
#63 = CALENDAR_DATE ( 2021, 5, 1 ) ;
#64 =( NAMED_UNIT ( * ) SI_UNIT ( $, .STERADIAN. ) SOLID_ANGLE_UNIT ( ) );
#65 = APPROVAL ( #175, 'UNSPECIFIED' ) ;
#66 = CARTESIAN_POINT ( 'NONE',  ( 10.00000000000000000, 10.00000000000000000, 10.00000000000000000 ) ) ;
#67 = ADVANCED_FACE ( 'NONE', ( #117 ), #7, .F. ) ;
#68 = PERSON_AND_ORGANIZATION ( #98, #315 ) ;
#69 = VERTEX_POINT ( 'NONE', #75 ) ;
#70 = APPROVAL_PERSON_ORGANIZATION ( #147, #65, #127 ) ;
#71 = VERTEX_POINT ( 'NONE', #168 ) ;
#72 = CARTESIAN_POINT ( 'NONE',  ( 10.00000000000000000, 10.00000000000000000, 10.00000000000000000 ) ) ;
#73 = DIRECTION ( 'NONE',  ( -2.220446049250313081E-16, -1.000000000000000000, 0.000000000000000000 ) ) ;
#74 = VECTOR ( 'NONE', #79, 1000.000000000000000 ) ;
#75 = CARTESIAN_POINT ( 'NONE',  ( 10.00000000000000178, 9.999999999999998224, -10.00000000000000000 ) ) ;
#76 = PLANE ( 'NONE',  #164 ) ;
#77 = DATE_AND_TIME ( #63, #310 ) ;
#78 = FACE_OUTER_BOUND ( 'NONE', #159, .T. ) ;
#79 = DIRECTION ( 'NONE',  ( 2.220446049250313081E-16, 1.000000000000000000, 0.000000000000000000 ) ) ;
#80 = DIRECTION ( 'NONE',  ( 1.000000000000000000, 0.000000000000000000, 0.000000000000000000 ) ) ;
#81 = APPROVAL_PERSON_ORGANIZATION ( #15, #272, #107 ) ;
#82 = DIRECTION ( 'NONE',  ( 1.000000000000000000, 0.000000000000000000, 0.000000000000000000 ) ) ;
#83 = PLANE ( 'NONE',  #216 ) ;
#84 = PERSON_AND_ORGANIZATION ( #98, #315 ) ;
#85 = VECTOR ( 'NONE', #270, 1000.000000000000000 ) ;
#86 = PERSON_AND_ORGANIZATION ( #98, #315 ) ;
#87 = EDGE_CURVE ( 'NONE', #230, #22, #273, .T. ) ;
#88 = CARTESIAN_POINT ( 'NONE',  ( -9.999999999999998224, 10.00000000000000355, -10.00000000000000000 ) ) ;
#89 = PRODUCT_DEFINITION_SHAPE ( 'NONE', 'NONE',  #126 ) ;
#90 = ORIENTED_EDGE ( 'NONE', *, *, #178, .T. ) ;
#91 = ORIENTED_EDGE ( 'NONE', *, *, #178, .F. ) ;
#92 = EDGE_LOOP ( 'NONE', ( #50, #294, #43, #135 ) ) ;
#93 = EDGE_LOOP ( 'NONE', ( #21, #116, #91, #263 ) ) ;
#94 = DIRECTION ( 'NONE',  ( -0.7071067811865475727, -0.7071067811865474617, 0.000000000000000000 ) ) ;
#95 = DIRECTION ( 'NONE',  ( 0.7071067811865475727, 0.7071067811865474617, 0.000000000000000000 ) ) ;
#96 = LINE ( 'NONE', #72, #223 ) ;
#97 = PRODUCT_RELATED_PRODUCT_CATEGORY ( 'detail', '', ( #260 ) ) ;
#98 = PERSON ( 'UNSPECIFIED', 'UNSPECIFIED', 'UNSPECIFIED', ('UNSPECIFIED'), ('UNSPECIFIED'), ('UNSPECIFIED') ) ;
#99 = CARTESIAN_POINT ( 'NONE',  ( 10.00000000000000178, 9.999999999999998224, 10.00000000000000000 ) ) ;
#100 = VECTOR ( 'NONE', #213, 1000.000000000000000 ) ;
#101 = APPROVAL_DATE_TIME ( #198, #65 ) ;
#102 = LINE ( 'NONE', #196, #188 ) ;
#103 = DIRECTION ( 'NONE',  ( -0.000000000000000000, 0.000000000000000000, 1.000000000000000000 ) ) ;
#104 = LINE ( 'NONE', #201, #179 ) ;
#105 = AXIS2_PLACEMENT_3D ( 'NONE', #176, #11, #195 ) ;
#106 = CC_DESIGN_SECURITY_CLASSIFICATION ( #202, ( #37 ) ) ;
#107 = APPROVAL_ROLE ( '' ) ;
#108 = ORIENTED_EDGE ( 'NONE', *, *, #205, .T. ) ;
#109 = ORIENTED_EDGE ( 'NONE', *, *, #52, .F. ) ;
#110 = AXIS2_PLACEMENT_3D ( 'NONE', #25, #165, #138 ) ;
#111 = VERTEX_POINT ( 'NONE', #246 ) ;
#112 = EDGE_LOOP ( 'NONE', ( #288, #284, #187 ) ) ;
#113 = ORIENTED_EDGE ( 'NONE', *, *, #87, .F. ) ;
#114 = CC_DESIGN_PERSON_AND_ORGANIZATION_ASSIGNMENT ( #218, #153, ( #260 ) ) ;
#115 = VECTOR ( 'NONE', #143, 1000.000000000000000 ) ;
#116 = ORIENTED_EDGE ( 'NONE', *, *, #205, .F. ) ;
#117 = FACE_OUTER_BOUND ( 'NONE', #112, .T. ) ;
#118 = CARTESIAN_POINT ( 'NONE',  ( 10.00000000000000178, 9.999999999999998224, 10.00000000000000000 ) ) ;
#119 = CARTESIAN_POINT ( 'NONE',  ( 0.000000000000000000, 0.000000000000000000, -10.00000000000000000 ) ) ;
#120 = CARTESIAN_POINT ( 'NONE',  ( -10.00000000000000178, -9.999999999999996447, 10.00000000000000000 ) ) ;
#121 = DIRECTION ( 'NONE',  ( 0.000000000000000000, 0.000000000000000000, 1.000000000000000000 ) ) ;
#122 = DIRECTION ( 'NONE',  ( 1.000000000000000000, 0.000000000000000000, 0.000000000000000000 ) ) ;
#123 = PERSON_AND_ORGANIZATION_ROLE ( 'creator' ) ;
#124 = LINE ( 'NONE', #174, #173 ) ;
#125 = LINE ( 'NONE', #120, #9 ) ;
#126 = PRODUCT_DEFINITION ( 'UNKNOWN', '', #37, #224 ) ;
#127 = APPROVAL_ROLE ( '' ) ;
#128 = AXIS2_PLACEMENT_3D ( 'NONE', #34, #302, #95 ) ;
#129 =( LENGTH_UNIT ( ) NAMED_UNIT ( * ) SI_UNIT ( .MILLI., .METRE. ) );
#130 = SECURITY_CLASSIFICATION_LEVEL ( 'unclassified' ) ;
#131 = ORIENTED_EDGE ( 'NONE', *, *, #245, .F. ) ;
#132 = ORIENTED_EDGE ( 'NONE', *, *, #36, .F. ) ;
#133 = CC_DESIGN_PERSON_AND_ORGANIZATION_ASSIGNMENT ( #86, #289, ( #37 ) ) ;
#134 = EDGE_LOOP ( 'NONE', ( #46, #264, #90 ) ) ;
#135 = ORIENTED_EDGE ( 'NONE', *, *, #184, .T. ) ;
#136 = ORIENTED_EDGE ( 'NONE', *, *, #148, .F. ) ;
#137 = ORIENTED_EDGE ( 'NONE', *, *, #184, .F. ) ;
#138 = DIRECTION ( 'NONE',  ( 0.7071067811865475727, 0.7071067811865474617, 0.000000000000000000 ) ) ;
#139 = FACE_OUTER_BOUND ( 'NONE', #291, .T. ) ;
#140 = CC_DESIGN_DATE_AND_TIME_ASSIGNMENT ( #77, #275, ( #126 ) ) ;
#141 = LINE ( 'NONE', #243, #285 ) ;
#142 = LINE ( 'NONE', #298, #100 ) ;
#143 = DIRECTION ( 'NONE',  ( -0.000000000000000000, 0.000000000000000000, -1.000000000000000000 ) ) ;
#144 = PLANE ( 'NONE',  #128 ) ;
#145 = PERSON_AND_ORGANIZATION ( #98, #315 ) ;
#146 = PLANE ( 'NONE',  #277 ) ;
#147 = PERSON_AND_ORGANIZATION ( #98, #315 ) ;
#148 = EDGE_CURVE ( 'NONE', #71, #69, #190, .T. ) ;
#149 = DIRECTION ( 'NONE',  ( 0.000000000000000000, 1.000000000000000000, 0.000000000000000000 ) ) ;
#150 = DIRECTION ( 'NONE',  ( 0.000000000000000000, 0.000000000000000000, 1.000000000000000000 ) ) ;
#151 = UNCERTAINTY_MEASURE_WITH_UNIT (LENGTH_MEASURE( 1.000000000000000082E-05 ), #129, 'distance_accuracy_value', 'NONE');
#152 = VECTOR ( 'NONE', #12, 1000.000000000000000 ) ;
#153 = PERSON_AND_ORGANIZATION_ROLE ( 'design_owner' ) ;
#154 = ADVANCED_FACE ( 'NONE', ( #139 ), #6, .F. ) ;
#155 = SHAPE_DEFINITION_REPRESENTATION ( #89, #237 ) ;
#156 = EDGE_LOOP ( 'NONE', ( #229, #137, #3, #108 ) ) ;
#157 = DIRECTION ( 'NONE',  ( 1.000000000000000000, -2.220446049250313081E-16, 0.000000000000000000 ) ) ;
#158 = ORIENTED_EDGE ( 'NONE', *, *, #87, .T. ) ;
#159 = EDGE_LOOP ( 'NONE', ( #131, #290, #268, #158 ) ) ;
#160 = AXIS2_PLACEMENT_3D ( 'NONE', #282, #215, #121 ) ;
#161 = ORIENTED_EDGE ( 'NONE', *, *, #41, .F. ) ;
#162 = FACE_OUTER_BOUND ( 'NONE', #156, .T. ) ;
#163 = CC_DESIGN_DATE_AND_TIME_ASSIGNMENT ( #258, #18, ( #202 ) ) ;
#164 = AXIS2_PLACEMENT_3D ( 'NONE', #247, #73, #166 ) ;
#165 = DIRECTION ( 'NONE',  ( 0.7071067811865474617, -0.7071067811865475727, 0.000000000000000000 ) ) ;
#166 = DIRECTION ( 'NONE',  ( 0.000000000000000000, 0.000000000000000000, 1.000000000000000000 ) ) ;
#167 = LOCAL_TIME ( 10, 14, 49.00000000000000000, #305 ) ;
#168 = CARTESIAN_POINT ( 'NONE',  ( 10.00000000000000178, -10.00000000000000000, -10.00000000000000000 ) ) ;
#169 = DIRECTION ( 'NONE',  ( 2.220446049250313081E-16, 1.000000000000000000, 0.000000000000000000 ) ) ;
#170 = DIRECTION ( 'NONE',  ( -0.7071067811865475727, -0.7071067811865474617, 0.000000000000000000 ) ) ;
#171 = CARTESIAN_POINT ( 'NONE',  ( 10.00000000000000178, -10.00000000000000000, 10.00000000000000000 ) ) ;
#172 = ADVANCED_FACE ( 'NONE', ( #28 ), #60, .T. ) ;
#173 = VECTOR ( 'NONE', #219, 1000.000000000000000 ) ;
#174 = CARTESIAN_POINT ( 'NONE',  ( 10.00000000000000000, 10.00000000000000000, 10.00000000000000000 ) ) ;
#175 = APPROVAL_STATUS ( 'not_yet_approved' ) ;
#176 = CARTESIAN_POINT ( 'NONE',  ( 0.000000000000000000, 0.000000000000000000, 10.00000000000000000 ) ) ;
#177 = MECHANICAL_CONTEXT ( 'NONE', #320, 'mechanical' ) ;
#178 = EDGE_CURVE ( 'NONE', #259, #189, #26, .T. ) ;
#179 = VECTOR ( 'NONE', #309, 1000.000000000000000 ) ;
#180 = CALENDAR_DATE ( 2021, 5, 1 ) ;
#181 = AXIS2_PLACEMENT_3D ( 'NONE', #303, #307, #80 ) ;
#182 = CALENDAR_DATE ( 2021, 5, 1 ) ;
#183 = APPLICATION_CONTEXT ( 'configuration controlled 3d designs of mechanical parts and assemblies' ) ;
#184 = EDGE_CURVE ( 'NONE', #111, #319, #142, .T. ) ;
#185 = AXIS2_PLACEMENT_3D ( 'NONE', #29, #103, #122 ) ;
#186 = LINE ( 'NONE', #66, #240 ) ;
#187 = ORIENTED_EDGE ( 'NONE', *, *, #62, .T. ) ;
#188 = VECTOR ( 'NONE', #169, 1000.000000000000000 ) ;
#189 = VERTEX_POINT ( 'NONE', #118 ) ;
#190 = LINE ( 'NONE', #295, #17 ) ;
#191 = CC_DESIGN_PERSON_AND_ORGANIZATION_ASSIGNMENT ( #84, #123, ( #37 ) ) ;
#192 = LINE ( 'NONE', #296, #85 ) ;
#193 = DIRECTION ( 'NONE',  ( -0.000000000000000000, 0.000000000000000000, 1.000000000000000000 ) ) ;
#194 = DIRECTION ( 'NONE',  ( 0.000000000000000000, -0.000000000000000000, 1.000000000000000000 ) ) ;
#195 = DIRECTION ( 'NONE',  ( 2.220446049250313081E-16, 1.000000000000000000, 0.000000000000000000 ) ) ;
#196 = CARTESIAN_POINT ( 'NONE',  ( -10.00000000000000178, -9.999999999999996447, -10.00000000000000000 ) ) ;
#197 = ADVANCED_FACE ( 'NONE', ( #56 ), #8, .T. ) ;
#198 = DATE_AND_TIME ( #221, #167 ) ;
#199 = FACE_OUTER_BOUND ( 'NONE', #92, .T. ) ;
#200 = LINE ( 'NONE', #279, #47 ) ;
#201 = CARTESIAN_POINT ( 'NONE',  ( 10.00000000000000178, -10.00000000000000000, 10.00000000000000000 ) ) ;
#202 = SECURITY_CLASSIFICATION ( '', '', #130 ) ;
#203 = CC_DESIGN_PERSON_AND_ORGANIZATION_ASSIGNMENT ( #251, #13, ( #126 ) ) ;
#204 = DATE_AND_TIME ( #14, #301 ) ;
#205 = EDGE_CURVE ( 'NONE', #189, #69, #280, .T. ) ;
#206 = DIRECTION ( 'NONE',  ( 1.000000000000000000, 0.000000000000000000, 0.000000000000000000 ) ) ;
#207 = EDGE_CURVE ( 'NONE', #1, #211, #125, .T. ) ;
#208 = LOCAL_TIME ( 10, 14, 49.00000000000000000, #225 ) ;
#209 = EDGE_LOOP ( 'NONE', ( #44, #113, #266, #321 ) ) ;
#210 = ORIENTED_EDGE ( 'NONE', *, *, #207, .T. ) ;
#211 = VERTEX_POINT ( 'NONE', #304 ) ;
#212 = ORIENTED_EDGE ( 'NONE', *, *, #31, .F. ) ;
#213 = DIRECTION ( 'NONE',  ( -0.000000000000000000, -0.000000000000000000, -1.000000000000000000 ) ) ;
#214 = DIRECTION ( 'NONE',  ( -0.7071067811865475727, -0.7071067811865474617, 0.000000000000000000 ) ) ;
#215 = DIRECTION ( 'NONE',  ( -1.000000000000000000, 0.000000000000000000, 0.000000000000000000 ) ) ;
#216 = AXIS2_PLACEMENT_3D ( 'NONE', #311, #35, #150 ) ;
#217 = CARTESIAN_POINT ( 'NONE',  ( -9.999999999999998224, 10.00000000000000355, 10.00000000000000000 ) ) ;
#218 = PERSON_AND_ORGANIZATION ( #98, #315 ) ;
#219 = DIRECTION ( 'NONE',  ( -0.000000000000000000, 0.000000000000000000, -1.000000000000000000 ) ) ;
#220 = LINE ( 'NONE', #306, #74 ) ;
#221 = CALENDAR_DATE ( 2021, 5, 1 ) ;
#222 = CC_DESIGN_PERSON_AND_ORGANIZATION_ASSIGNMENT ( #68, #228, ( #202 ) ) ;
#223 = VECTOR ( 'NONE', #94, 1000.000000000000000 ) ;
#224 = DESIGN_CONTEXT ( 'detailed design', #183, 'design' ) ;
#225 = COORDINATED_UNIVERSAL_TIME_OFFSET ( 8, 0, .AHEAD. ) ;
#226 = DATE_AND_TIME ( #180, #48 ) ;
#227 = ADVANCED_FACE ( 'NONE', ( #244 ), #144, .F. ) ;
#228 = PERSON_AND_ORGANIZATION_ROLE ( 'classification_officer' ) ;
#229 = ORIENTED_EDGE ( 'NONE', *, *, #52, .T. ) ;
#230 = VERTEX_POINT ( 'NONE', #217 ) ;
#231 = ADVANCED_FACE ( 'NONE', ( #10 ), #76, .F. ) ;
#232 = ORIENTED_EDGE ( 'NONE', *, *, #36, .T. ) ;
#233 = AXIS2_PLACEMENT_3D ( 'NONE', #252, #193, #82 ) ;
#234 = APPROVAL_PERSON_ORGANIZATION ( #145, #253, #33 ) ;
#235 = ORIENTED_EDGE ( 'NONE', *, *, #308, .F. ) ;
#236 = EDGE_LOOP ( 'NONE', ( #132, #212, #24 ) ) ;
#237 = ADVANCED_BREP_SHAPE_REPRESENTATION ( 'N-SF1-BPBSC-20-900-1300', ( #38, #42, #181 ), #2 ) ;
#238 = EDGE_LOOP ( 'NONE', ( #235, #261, #232, #210 ) ) ;
#239 = EDGE_CURVE ( 'NONE', #189, #111, #274, .T. ) ;
#240 = VECTOR ( 'NONE', #157, 1000.000000000000000 ) ;
#241 = PLANE ( 'NONE',  #110 ) ;
#242 = DIRECTION ( 'NONE',  ( -0.000000000000000000, -0.000000000000000000, -1.000000000000000000 ) ) ;
#243 = CARTESIAN_POINT ( 'NONE',  ( 10.00000000000000000, 10.00000000000000000, -10.00000000000000000 ) ) ;
#244 = FACE_OUTER_BOUND ( 'NONE', #238, .T. ) ;
#245 = EDGE_CURVE ( 'NONE', #211, #22, #102, .T. ) ;
#246 = CARTESIAN_POINT ( 'NONE',  ( -9.999999999999998224, -10.00000000000000000, 10.00000000000000000 ) ) ;
#247 = CARTESIAN_POINT ( 'NONE',  ( 10.00000000000000000, 10.00000000000000000, 10.00000000000000000 ) ) ;
#248 = CARTESIAN_POINT ( 'NONE',  ( -9.999999999999998224, -10.00000000000000000, -10.00000000000000000 ) ) ;
#249 = CARTESIAN_POINT ( 'NONE',  ( -9.999999999999998224, -10.00000000000000000, 10.00000000000000000 ) ) ;
#250 = CC_DESIGN_APPROVAL ( #253, ( #37 ) ) ;
#251 = PERSON_AND_ORGANIZATION ( #98, #315 ) ;
#252 = CARTESIAN_POINT ( 'NONE',  ( 0.000000000000000000, 0.000000000000000000, 10.00000000000000000 ) ) ;
#253 = APPROVAL ( #254, 'UNSPECIFIED' ) ;
#254 = APPROVAL_STATUS ( 'not_yet_approved' ) ;
#255 = CLOSED_SHELL ( 'NONE', ( #227, #313, #231, #197, #67 ) ) ;
#256 = PLANE ( 'NONE',  #160 ) ;
#257 = CC_DESIGN_APPROVAL ( #272, ( #202 ) ) ;
#258 = DATE_AND_TIME ( #182, #208 ) ;
#259 = VERTEX_POINT ( 'NONE', #171 ) ;
#260 = PRODUCT ( 'N-SF1-BPBSC-20-900-1300', 'N-SF1-BPBSC-20-900-1300', '', ( #177 ) ) ;
#261 = ORIENTED_EDGE ( 'NONE', *, *, #267, .F. ) ;
#262 = ADVANCED_FACE ( 'NONE', ( #199 ), #146, .F. ) ;
#263 = ORIENTED_EDGE ( 'NONE', *, *, #297, .T. ) ;
#264 = ORIENTED_EDGE ( 'NONE', *, *, #4, .T. ) ;
#265 = VECTOR ( 'NONE', #278, 1000.000000000000000 ) ;
#266 = ORIENTED_EDGE ( 'NONE', *, *, #31, .T. ) ;
#267 = EDGE_CURVE ( 'NONE', #19, #40, #124, .T. ) ;
#268 = ORIENTED_EDGE ( 'NONE', *, *, #293, .T. ) ;
#269 = DIRECTION ( 'NONE',  ( -0.000000000000000000, 1.000000000000000000, -0.000000000000000000 ) ) ;
#270 = DIRECTION ( 'NONE',  ( 1.000000000000000000, 0.000000000000000000, 0.000000000000000000 ) ) ;
#271 = DIRECTION ( 'NONE',  ( -0.000000000000000000, 0.000000000000000000, -1.000000000000000000 ) ) ;
#272 = APPROVAL ( #314, 'UNSPECIFIED' ) ;
#273 = LINE ( 'NONE', #55, #115 ) ;
#274 = LINE ( 'NONE', #54, #265 ) ;
#275 = DATE_TIME_ROLE ( 'creation_date' ) ;
#276 = APPLICATION_PROTOCOL_DEFINITION ( 'international standard', 'config_control_design', 1994, #320 ) ;
#277 = AXIS2_PLACEMENT_3D ( 'NONE', #249, #149, #32 ) ;
#278 = DIRECTION ( 'NONE',  ( -0.7071067811865475727, -0.7071067811865474617, 0.000000000000000000 ) ) ;
#279 = CARTESIAN_POINT ( 'NONE',  ( 10.00000000000000000, 10.00000000000000000, -10.00000000000000000 ) ) ;
#280 = LINE ( 'NONE', #58, #318 ) ;
#281 = COORDINATED_UNIVERSAL_TIME_OFFSET ( 8, 0, .AHEAD. ) ;
#282 = CARTESIAN_POINT ( 'NONE',  ( 10.00000000000000178, 9.999999999999998224, 10.00000000000000000 ) ) ;
#283 = VECTOR ( 'NONE', #214, 1000.000000000000000 ) ;
#284 = ORIENTED_EDGE ( 'NONE', *, *, #245, .T. ) ;
#285 = VECTOR ( 'NONE', #27, 1000.000000000000000 ) ;
#286 = APPROVAL_DATE_TIME ( #226, #272 ) ;
#287 = CC_DESIGN_APPROVAL ( #65, ( #126 ) ) ;
#288 = ORIENTED_EDGE ( 'NONE', *, *, #308, .T. ) ;
#289 = PERSON_AND_ORGANIZATION_ROLE ( 'design_supplier' ) ;
#290 = ORIENTED_EDGE ( 'NONE', *, *, #207, .F. ) ;
#291 = EDGE_LOOP ( 'NONE', ( #109, #136, #161 ) ) ;
#292 = VECTOR ( 'NONE', #206, 1000.000000000000000 ) ;
#293 = EDGE_CURVE ( 'NONE', #1, #230, #220, .T. ) ;
#294 = ORIENTED_EDGE ( 'NONE', *, *, #297, .F. ) ;
#295 = CARTESIAN_POINT ( 'NONE',  ( 10.00000000000000178, 9.999999999999998224, -10.00000000000000000 ) ) ;
#296 = CARTESIAN_POINT ( 'NONE',  ( -9.999999999999998224, -10.00000000000000000, -10.00000000000000000 ) ) ;
#297 = EDGE_CURVE ( 'NONE', #259, #71, #104, .T. ) ;
#298 = CARTESIAN_POINT ( 'NONE',  ( -9.999999999999998224, -10.00000000000000000, 10.00000000000000000 ) ) ;
#299 = CLOSED_SHELL ( 'NONE', ( #45, #262, #316, #172, #154 ) ) ;
#300 = DIRECTION ( 'NONE',  ( 2.220446049250313081E-16, 1.000000000000000000, 0.000000000000000000 ) ) ;
#301 = LOCAL_TIME ( 10, 14, 49.00000000000000000, #30 ) ;
#302 = DIRECTION ( 'NONE',  ( -0.7071067811865474617, 0.7071067811865475727, 0.000000000000000000 ) ) ;
#303 = CARTESIAN_POINT ( 'NONE',  ( 0.000000000000000000, 0.000000000000000000, 0.000000000000000000 ) ) ;
#304 = CARTESIAN_POINT ( 'NONE',  ( -10.00000000000000178, -9.999999999999996447, -10.00000000000000000 ) ) ;
#305 = COORDINATED_UNIVERSAL_TIME_OFFSET ( 8, 0, .AHEAD. ) ;
#306 = CARTESIAN_POINT ( 'NONE',  ( -10.00000000000000178, -9.999999999999996447, 10.00000000000000000 ) ) ;
#307 = DIRECTION ( 'NONE',  ( 0.000000000000000000, 0.000000000000000000, 1.000000000000000000 ) ) ;
#308 = EDGE_CURVE ( 'NONE', #40, #211, #200, .T. ) ;
#309 = DIRECTION ( 'NONE',  ( -0.000000000000000000, -0.000000000000000000, -1.000000000000000000 ) ) ;
#310 = LOCAL_TIME ( 10, 14, 49.00000000000000000, #281 ) ;
#311 = CARTESIAN_POINT ( 'NONE',  ( -10.00000000000000178, -9.999999999999996447, 10.00000000000000000 ) ) ;
#312 = APPROVAL_DATE_TIME ( #204, #253 ) ;
#313 = ADVANCED_FACE ( 'NONE', ( #78 ), #83, .F. ) ;
#314 = APPROVAL_STATUS ( 'not_yet_approved' ) ;
#315 = ORGANIZATION ( 'UNSPECIFIED', 'UNSPECIFIED', '' ) ;
#316 = ADVANCED_FACE ( 'NONE', ( #57 ), #256, .F. ) ;
#317 = CARTESIAN_POINT ( 'NONE',  ( 10.00000000000000000, 10.00000000000000000, 10.00000000000000000 ) ) ;
#318 = VECTOR ( 'NONE', #242, 1000.000000000000000 ) ;
#319 = VERTEX_POINT ( 'NONE', #248 ) ;
#320 = APPLICATION_CONTEXT ( 'configuration controlled 3d designs of mechanical parts and assemblies' ) ;
#321 = ORIENTED_EDGE ( 'NONE', *, *, #267, .T. ) ;
ENDSEC;
END-ISO-10303-21;
